ISO-10303-21;
HEADER;
/* Generated by software containing ST-Developer
 * from STEP Tools, Inc. (www.steptools.com) 
 */

FILE_DESCRIPTION(
/* description */ (''),
/* implementation_level */ '2;1');

FILE_NAME(
/* name */ 'LEF2-300 Basic Jig v1.step',
/* time_stamp */ '2023-12-19T12:39:11-07:00',
/* author */ (''),
/* organization */ (''),
/* preprocessor_version */ 'ST-DEVELOPER v20',
/* originating_system */ 'Autodesk Translation Framework v12.14.0.127',

/* authorisation */ '');

FILE_SCHEMA (('AUTOMOTIVE_DESIGN { 1 0 10303 214 3 1 1 }'));
ENDSEC;

DATA;
#10=MECHANICAL_DESIGN_GEOMETRIC_PRESENTATION_REPRESENTATION('',(#13),#615);
#11=SHAPE_REPRESENTATION_RELATIONSHIP('SRR','None',#622,#12);
#12=ADVANCED_BREP_SHAPE_REPRESENTATION('',(#14),#614);
#13=STYLED_ITEM('',(#631),#14);
#14=MANIFOLD_SOLID_BREP('Body2',#363);
#15=FACE_BOUND('',#70,.T.);
#16=FACE_BOUND('',#71,.T.);
#17=FACE_BOUND('',#72,.T.);
#18=FACE_BOUND('',#73,.T.);
#19=FACE_BOUND('',#74,.T.);
#20=FACE_BOUND('',#76,.T.);
#21=FACE_BOUND('',#77,.T.);
#22=FACE_BOUND('',#78,.T.);
#23=FACE_BOUND('',#79,.T.);
#24=FACE_BOUND('',#80,.T.);
#25=PLANE('',#380);
#26=PLANE('',#384);
#27=PLANE('',#388);
#28=PLANE('',#392);
#29=PLANE('',#405);
#30=PLANE('',#406);
#31=PLANE('',#407);
#32=PLANE('',#408);
#33=PLANE('',#409);
#34=PLANE('',#410);
#35=FACE_OUTER_BOUND('',#53,.T.);
#36=FACE_OUTER_BOUND('',#54,.T.);
#37=FACE_OUTER_BOUND('',#55,.T.);
#38=FACE_OUTER_BOUND('',#56,.T.);
#39=FACE_OUTER_BOUND('',#57,.T.);
#40=FACE_OUTER_BOUND('',#58,.T.);
#41=FACE_OUTER_BOUND('',#59,.T.);
#42=FACE_OUTER_BOUND('',#60,.T.);
#43=FACE_OUTER_BOUND('',#61,.T.);
#44=FACE_OUTER_BOUND('',#62,.T.);
#45=FACE_OUTER_BOUND('',#63,.T.);
#46=FACE_OUTER_BOUND('',#64,.T.);
#47=FACE_OUTER_BOUND('',#65,.T.);
#48=FACE_OUTER_BOUND('',#66,.T.);
#49=FACE_OUTER_BOUND('',#67,.T.);
#50=FACE_OUTER_BOUND('',#68,.T.);
#51=FACE_OUTER_BOUND('',#69,.T.);
#52=FACE_OUTER_BOUND('',#75,.T.);
#53=EDGE_LOOP('',(#241,#242,#243,#244));
#54=EDGE_LOOP('',(#245,#246,#247,#248));
#55=EDGE_LOOP('',(#249,#250,#251,#252));
#56=EDGE_LOOP('',(#253,#254,#255,#256));
#57=EDGE_LOOP('',(#257,#258,#259,#260));
#58=EDGE_LOOP('',(#261,#262,#263,#264));
#59=EDGE_LOOP('',(#265,#266,#267,#268));
#60=EDGE_LOOP('',(#269,#270,#271,#272));
#61=EDGE_LOOP('',(#273,#274,#275,#276));
#62=EDGE_LOOP('',(#277,#278,#279,#280));
#63=EDGE_LOOP('',(#281,#282,#283,#284));
#64=EDGE_LOOP('',(#285,#286,#287,#288));
#65=EDGE_LOOP('',(#289,#290,#291,#292));
#66=EDGE_LOOP('',(#293,#294,#295,#296));
#67=EDGE_LOOP('',(#297,#298,#299,#300));
#68=EDGE_LOOP('',(#301,#302,#303,#304));
#69=EDGE_LOOP('',(#305,#306,#307,#308));
#70=EDGE_LOOP('',(#309));
#71=EDGE_LOOP('',(#310));
#72=EDGE_LOOP('',(#311));
#73=EDGE_LOOP('',(#312,#313,#314,#315,#316,#317,#318,#319));
#74=EDGE_LOOP('',(#320));
#75=EDGE_LOOP('',(#321,#322,#323,#324));
#76=EDGE_LOOP('',(#325));
#77=EDGE_LOOP('',(#326));
#78=EDGE_LOOP('',(#327));
#79=EDGE_LOOP('',(#328,#329,#330,#331,#332,#333,#334,#335));
#80=EDGE_LOOP('',(#336));
#81=LINE('',#518,#113);
#82=LINE('',#523,#114);
#83=LINE('',#525,#115);
#84=LINE('',#527,#116);
#85=LINE('',#528,#117);
#86=LINE('',#534,#118);
#87=LINE('',#537,#119);
#88=LINE('',#539,#120);
#89=LINE('',#540,#121);
#90=LINE('',#546,#122);
#91=LINE('',#549,#123);
#92=LINE('',#551,#124);
#93=LINE('',#552,#125);
#94=LINE('',#558,#126);
#95=LINE('',#561,#127);
#96=LINE('',#563,#128);
#97=LINE('',#564,#129);
#98=LINE('',#572,#130);
#99=LINE('',#578,#131);
#100=LINE('',#584,#132);
#101=LINE('',#589,#133);
#102=LINE('',#591,#134);
#103=LINE('',#593,#135);
#104=LINE('',#594,#136);
#105=LINE('',#597,#137);
#106=LINE('',#599,#138);
#107=LINE('',#600,#139);
#108=LINE('',#603,#140);
#109=LINE('',#605,#141);
#110=LINE('',#606,#142);
#111=LINE('',#608,#143);
#112=LINE('',#609,#144);
#113=VECTOR('',#417,1.94999999999993);
#114=VECTOR('',#422,10.);
#115=VECTOR('',#423,10.);
#116=VECTOR('',#424,10.);
#117=VECTOR('',#425,10.);
#118=VECTOR('',#432,10.);
#119=VECTOR('',#435,10.);
#120=VECTOR('',#436,10.);
#121=VECTOR('',#437,10.);
#122=VECTOR('',#444,10.);
#123=VECTOR('',#447,10.);
#124=VECTOR('',#448,10.);
#125=VECTOR('',#449,10.);
#126=VECTOR('',#456,10.);
#127=VECTOR('',#459,10.);
#128=VECTOR('',#460,10.);
#129=VECTOR('',#461,10.);
#130=VECTOR('',#472,1.95);
#131=VECTOR('',#479,1.95);
#132=VECTOR('',#486,1.94999999999993);
#133=VECTOR('',#491,10.);
#134=VECTOR('',#492,10.);
#135=VECTOR('',#493,10.);
#136=VECTOR('',#494,10.);
#137=VECTOR('',#497,10.);
#138=VECTOR('',#498,10.);
#139=VECTOR('',#499,10.);
#140=VECTOR('',#502,10.);
#141=VECTOR('',#503,10.);
#142=VECTOR('',#504,10.);
#143=VECTOR('',#507,10.);
#144=VECTOR('',#508,10.);
#145=CIRCLE('',#378,1.94999999999993);
#146=CIRCLE('',#379,1.94999999999993);
#147=CIRCLE('',#382,2.5);
#148=CIRCLE('',#383,2.5);
#149=CIRCLE('',#386,2.5);
#150=CIRCLE('',#387,2.5);
#151=CIRCLE('',#390,2.5);
#152=CIRCLE('',#391,2.5);
#153=CIRCLE('',#394,2.49999999999997);
#154=CIRCLE('',#395,2.49999999999997);
#155=CIRCLE('',#397,1.95);
#156=CIRCLE('',#398,1.95);
#157=CIRCLE('',#400,1.95);
#158=CIRCLE('',#401,1.95);
#159=CIRCLE('',#403,1.94999999999993);
#160=CIRCLE('',#404,1.94999999999993);
#161=VERTEX_POINT('',#515);
#162=VERTEX_POINT('',#517);
#163=VERTEX_POINT('',#521);
#164=VERTEX_POINT('',#522);
#165=VERTEX_POINT('',#524);
#166=VERTEX_POINT('',#526);
#167=VERTEX_POINT('',#530);
#168=VERTEX_POINT('',#532);
#169=VERTEX_POINT('',#536);
#170=VERTEX_POINT('',#538);
#171=VERTEX_POINT('',#542);
#172=VERTEX_POINT('',#544);
#173=VERTEX_POINT('',#548);
#174=VERTEX_POINT('',#550);
#175=VERTEX_POINT('',#554);
#176=VERTEX_POINT('',#556);
#177=VERTEX_POINT('',#560);
#178=VERTEX_POINT('',#562);
#179=VERTEX_POINT('',#569);
#180=VERTEX_POINT('',#571);
#181=VERTEX_POINT('',#575);
#182=VERTEX_POINT('',#577);
#183=VERTEX_POINT('',#581);
#184=VERTEX_POINT('',#583);
#185=VERTEX_POINT('',#587);
#186=VERTEX_POINT('',#588);
#187=VERTEX_POINT('',#590);
#188=VERTEX_POINT('',#592);
#189=VERTEX_POINT('',#596);
#190=VERTEX_POINT('',#598);
#191=VERTEX_POINT('',#602);
#192=VERTEX_POINT('',#604);
#193=EDGE_CURVE('',#161,#161,#145,.T.);
#194=EDGE_CURVE('',#161,#162,#81,.T.);
#195=EDGE_CURVE('',#162,#162,#146,.T.);
#196=EDGE_CURVE('',#163,#164,#82,.T.);
#197=EDGE_CURVE('',#164,#165,#83,.T.);
#198=EDGE_CURVE('',#166,#165,#84,.T.);
#199=EDGE_CURVE('',#163,#166,#85,.T.);
#200=EDGE_CURVE('',#167,#163,#147,.T.);
#201=EDGE_CURVE('',#168,#166,#148,.T.);
#202=EDGE_CURVE('',#167,#168,#86,.T.);
#203=EDGE_CURVE('',#169,#167,#87,.T.);
#204=EDGE_CURVE('',#170,#168,#88,.T.);
#205=EDGE_CURVE('',#169,#170,#89,.T.);
#206=EDGE_CURVE('',#171,#169,#149,.T.);
#207=EDGE_CURVE('',#172,#170,#150,.T.);
#208=EDGE_CURVE('',#171,#172,#90,.T.);
#209=EDGE_CURVE('',#173,#171,#91,.T.);
#210=EDGE_CURVE('',#174,#172,#92,.T.);
#211=EDGE_CURVE('',#173,#174,#93,.T.);
#212=EDGE_CURVE('',#175,#173,#151,.T.);
#213=EDGE_CURVE('',#176,#174,#152,.T.);
#214=EDGE_CURVE('',#175,#176,#94,.T.);
#215=EDGE_CURVE('',#177,#175,#95,.T.);
#216=EDGE_CURVE('',#178,#176,#96,.T.);
#217=EDGE_CURVE('',#177,#178,#97,.T.);
#218=EDGE_CURVE('',#164,#177,#153,.T.);
#219=EDGE_CURVE('',#165,#178,#154,.T.);
#220=EDGE_CURVE('',#179,#179,#155,.T.);
#221=EDGE_CURVE('',#179,#180,#98,.T.);
#222=EDGE_CURVE('',#180,#180,#156,.T.);
#223=EDGE_CURVE('',#181,#181,#157,.T.);
#224=EDGE_CURVE('',#181,#182,#99,.T.);
#225=EDGE_CURVE('',#182,#182,#158,.T.);
#226=EDGE_CURVE('',#183,#183,#159,.T.);
#227=EDGE_CURVE('',#183,#184,#100,.T.);
#228=EDGE_CURVE('',#184,#184,#160,.T.);
#229=EDGE_CURVE('',#185,#186,#101,.T.);
#230=EDGE_CURVE('',#185,#187,#102,.T.);
#231=EDGE_CURVE('',#188,#187,#103,.T.);
#232=EDGE_CURVE('',#186,#188,#104,.T.);
#233=EDGE_CURVE('',#186,#189,#105,.T.);
#234=EDGE_CURVE('',#190,#188,#106,.T.);
#235=EDGE_CURVE('',#189,#190,#107,.T.);
#236=EDGE_CURVE('',#189,#191,#108,.T.);
#237=EDGE_CURVE('',#192,#190,#109,.T.);
#238=EDGE_CURVE('',#191,#192,#110,.T.);
#239=EDGE_CURVE('',#191,#185,#111,.T.);
#240=EDGE_CURVE('',#187,#192,#112,.T.);
#241=ORIENTED_EDGE('',*,*,#193,.F.);
#242=ORIENTED_EDGE('',*,*,#194,.T.);
#243=ORIENTED_EDGE('',*,*,#195,.T.);
#244=ORIENTED_EDGE('',*,*,#194,.F.);
#245=ORIENTED_EDGE('',*,*,#196,.T.);
#246=ORIENTED_EDGE('',*,*,#197,.T.);
#247=ORIENTED_EDGE('',*,*,#198,.F.);
#248=ORIENTED_EDGE('',*,*,#199,.F.);
#249=ORIENTED_EDGE('',*,*,#200,.T.);
#250=ORIENTED_EDGE('',*,*,#199,.T.);
#251=ORIENTED_EDGE('',*,*,#201,.F.);
#252=ORIENTED_EDGE('',*,*,#202,.F.);
#253=ORIENTED_EDGE('',*,*,#203,.T.);
#254=ORIENTED_EDGE('',*,*,#202,.T.);
#255=ORIENTED_EDGE('',*,*,#204,.F.);
#256=ORIENTED_EDGE('',*,*,#205,.F.);
#257=ORIENTED_EDGE('',*,*,#206,.T.);
#258=ORIENTED_EDGE('',*,*,#205,.T.);
#259=ORIENTED_EDGE('',*,*,#207,.F.);
#260=ORIENTED_EDGE('',*,*,#208,.F.);
#261=ORIENTED_EDGE('',*,*,#209,.T.);
#262=ORIENTED_EDGE('',*,*,#208,.T.);
#263=ORIENTED_EDGE('',*,*,#210,.F.);
#264=ORIENTED_EDGE('',*,*,#211,.F.);
#265=ORIENTED_EDGE('',*,*,#212,.T.);
#266=ORIENTED_EDGE('',*,*,#211,.T.);
#267=ORIENTED_EDGE('',*,*,#213,.F.);
#268=ORIENTED_EDGE('',*,*,#214,.F.);
#269=ORIENTED_EDGE('',*,*,#215,.T.);
#270=ORIENTED_EDGE('',*,*,#214,.T.);
#271=ORIENTED_EDGE('',*,*,#216,.F.);
#272=ORIENTED_EDGE('',*,*,#217,.F.);
#273=ORIENTED_EDGE('',*,*,#218,.T.);
#274=ORIENTED_EDGE('',*,*,#217,.T.);
#275=ORIENTED_EDGE('',*,*,#219,.F.);
#276=ORIENTED_EDGE('',*,*,#197,.F.);
#277=ORIENTED_EDGE('',*,*,#220,.F.);
#278=ORIENTED_EDGE('',*,*,#221,.T.);
#279=ORIENTED_EDGE('',*,*,#222,.T.);
#280=ORIENTED_EDGE('',*,*,#221,.F.);
#281=ORIENTED_EDGE('',*,*,#223,.F.);
#282=ORIENTED_EDGE('',*,*,#224,.T.);
#283=ORIENTED_EDGE('',*,*,#225,.T.);
#284=ORIENTED_EDGE('',*,*,#224,.F.);
#285=ORIENTED_EDGE('',*,*,#226,.F.);
#286=ORIENTED_EDGE('',*,*,#227,.T.);
#287=ORIENTED_EDGE('',*,*,#228,.T.);
#288=ORIENTED_EDGE('',*,*,#227,.F.);
#289=ORIENTED_EDGE('',*,*,#229,.F.);
#290=ORIENTED_EDGE('',*,*,#230,.T.);
#291=ORIENTED_EDGE('',*,*,#231,.F.);
#292=ORIENTED_EDGE('',*,*,#232,.F.);
#293=ORIENTED_EDGE('',*,*,#233,.F.);
#294=ORIENTED_EDGE('',*,*,#232,.T.);
#295=ORIENTED_EDGE('',*,*,#234,.F.);
#296=ORIENTED_EDGE('',*,*,#235,.F.);
#297=ORIENTED_EDGE('',*,*,#236,.F.);
#298=ORIENTED_EDGE('',*,*,#235,.T.);
#299=ORIENTED_EDGE('',*,*,#237,.F.);
#300=ORIENTED_EDGE('',*,*,#238,.F.);
#301=ORIENTED_EDGE('',*,*,#239,.F.);
#302=ORIENTED_EDGE('',*,*,#238,.T.);
#303=ORIENTED_EDGE('',*,*,#240,.F.);
#304=ORIENTED_EDGE('',*,*,#230,.F.);
#305=ORIENTED_EDGE('',*,*,#240,.T.);
#306=ORIENTED_EDGE('',*,*,#237,.T.);
#307=ORIENTED_EDGE('',*,*,#234,.T.);
#308=ORIENTED_EDGE('',*,*,#231,.T.);
#309=ORIENTED_EDGE('',*,*,#226,.T.);
#310=ORIENTED_EDGE('',*,*,#223,.T.);
#311=ORIENTED_EDGE('',*,*,#220,.T.);
#312=ORIENTED_EDGE('',*,*,#219,.T.);
#313=ORIENTED_EDGE('',*,*,#216,.T.);
#314=ORIENTED_EDGE('',*,*,#213,.T.);
#315=ORIENTED_EDGE('',*,*,#210,.T.);
#316=ORIENTED_EDGE('',*,*,#207,.T.);
#317=ORIENTED_EDGE('',*,*,#204,.T.);
#318=ORIENTED_EDGE('',*,*,#201,.T.);
#319=ORIENTED_EDGE('',*,*,#198,.T.);
#320=ORIENTED_EDGE('',*,*,#193,.T.);
#321=ORIENTED_EDGE('',*,*,#239,.T.);
#322=ORIENTED_EDGE('',*,*,#229,.T.);
#323=ORIENTED_EDGE('',*,*,#233,.T.);
#324=ORIENTED_EDGE('',*,*,#236,.T.);
#325=ORIENTED_EDGE('',*,*,#228,.F.);
#326=ORIENTED_EDGE('',*,*,#225,.F.);
#327=ORIENTED_EDGE('',*,*,#222,.F.);
#328=ORIENTED_EDGE('',*,*,#218,.F.);
#329=ORIENTED_EDGE('',*,*,#196,.F.);
#330=ORIENTED_EDGE('',*,*,#200,.F.);
#331=ORIENTED_EDGE('',*,*,#203,.F.);
#332=ORIENTED_EDGE('',*,*,#206,.F.);
#333=ORIENTED_EDGE('',*,*,#209,.F.);
#334=ORIENTED_EDGE('',*,*,#212,.F.);
#335=ORIENTED_EDGE('',*,*,#215,.F.);
#336=ORIENTED_EDGE('',*,*,#195,.F.);
#337=CYLINDRICAL_SURFACE('',#377,1.94999999999993);
#338=CYLINDRICAL_SURFACE('',#381,2.5);
#339=CYLINDRICAL_SURFACE('',#385,2.5);
#340=CYLINDRICAL_SURFACE('',#389,2.5);
#341=CYLINDRICAL_SURFACE('',#393,2.49999999999997);
#342=CYLINDRICAL_SURFACE('',#396,1.95);
#343=CYLINDRICAL_SURFACE('',#399,1.95);
#344=CYLINDRICAL_SURFACE('',#402,1.94999999999993);
#345=ADVANCED_FACE('',(#35),#337,.F.);
#346=ADVANCED_FACE('',(#36),#25,.T.);
#347=ADVANCED_FACE('',(#37),#338,.F.);
#348=ADVANCED_FACE('',(#38),#26,.T.);
#349=ADVANCED_FACE('',(#39),#339,.F.);
#350=ADVANCED_FACE('',(#40),#27,.T.);
#351=ADVANCED_FACE('',(#41),#340,.F.);
#352=ADVANCED_FACE('',(#42),#28,.T.);
#353=ADVANCED_FACE('',(#43),#341,.F.);
#354=ADVANCED_FACE('',(#44),#342,.F.);
#355=ADVANCED_FACE('',(#45),#343,.F.);
#356=ADVANCED_FACE('',(#46),#344,.F.);
#357=ADVANCED_FACE('',(#47),#29,.T.);
#358=ADVANCED_FACE('',(#48),#30,.T.);
#359=ADVANCED_FACE('',(#49),#31,.T.);
#360=ADVANCED_FACE('',(#50),#32,.T.);
#361=ADVANCED_FACE('',(#51,#15,#16,#17,#18,#19),#33,.T.);
#362=ADVANCED_FACE('',(#52,#20,#21,#22,#23,#24),#34,.F.);
#363=CLOSED_SHELL('',(#345,#346,#347,#348,#349,#350,#351,#352,#353,#354,
#355,#356,#357,#358,#359,#360,#361,#362));
#364=DERIVED_UNIT_ELEMENT(#366,1.);
#365=DERIVED_UNIT_ELEMENT(#617,-3.);
#366=(
MASS_UNIT()
NAMED_UNIT(*)
SI_UNIT(.KILO.,.GRAM.)
);
#367=DERIVED_UNIT((#364,#365));
#368=MEASURE_REPRESENTATION_ITEM('density measure',
POSITIVE_RATIO_MEASURE(7850.),#367);
#369=PROPERTY_DEFINITION_REPRESENTATION(#374,#371);
#370=PROPERTY_DEFINITION_REPRESENTATION(#375,#372);
#371=REPRESENTATION('material name',(#373),#614);
#372=REPRESENTATION('density',(#368),#614);
#373=DESCRIPTIVE_REPRESENTATION_ITEM('Steel','Steel');
#374=PROPERTY_DEFINITION('material property','material name',#624);
#375=PROPERTY_DEFINITION('material property','density of part',#624);
#376=AXIS2_PLACEMENT_3D('',#513,#411,#412);
#377=AXIS2_PLACEMENT_3D('',#514,#413,#414);
#378=AXIS2_PLACEMENT_3D('',#516,#415,#416);
#379=AXIS2_PLACEMENT_3D('',#519,#418,#419);
#380=AXIS2_PLACEMENT_3D('',#520,#420,#421);
#381=AXIS2_PLACEMENT_3D('',#529,#426,#427);
#382=AXIS2_PLACEMENT_3D('',#531,#428,#429);
#383=AXIS2_PLACEMENT_3D('',#533,#430,#431);
#384=AXIS2_PLACEMENT_3D('',#535,#433,#434);
#385=AXIS2_PLACEMENT_3D('',#541,#438,#439);
#386=AXIS2_PLACEMENT_3D('',#543,#440,#441);
#387=AXIS2_PLACEMENT_3D('',#545,#442,#443);
#388=AXIS2_PLACEMENT_3D('',#547,#445,#446);
#389=AXIS2_PLACEMENT_3D('',#553,#450,#451);
#390=AXIS2_PLACEMENT_3D('',#555,#452,#453);
#391=AXIS2_PLACEMENT_3D('',#557,#454,#455);
#392=AXIS2_PLACEMENT_3D('',#559,#457,#458);
#393=AXIS2_PLACEMENT_3D('',#565,#462,#463);
#394=AXIS2_PLACEMENT_3D('',#566,#464,#465);
#395=AXIS2_PLACEMENT_3D('',#567,#466,#467);
#396=AXIS2_PLACEMENT_3D('',#568,#468,#469);
#397=AXIS2_PLACEMENT_3D('',#570,#470,#471);
#398=AXIS2_PLACEMENT_3D('',#573,#473,#474);
#399=AXIS2_PLACEMENT_3D('',#574,#475,#476);
#400=AXIS2_PLACEMENT_3D('',#576,#477,#478);
#401=AXIS2_PLACEMENT_3D('',#579,#480,#481);
#402=AXIS2_PLACEMENT_3D('',#580,#482,#483);
#403=AXIS2_PLACEMENT_3D('',#582,#484,#485);
#404=AXIS2_PLACEMENT_3D('',#585,#487,#488);
#405=AXIS2_PLACEMENT_3D('',#586,#489,#490);
#406=AXIS2_PLACEMENT_3D('',#595,#495,#496);
#407=AXIS2_PLACEMENT_3D('',#601,#500,#501);
#408=AXIS2_PLACEMENT_3D('',#607,#505,#506);
#409=AXIS2_PLACEMENT_3D('',#610,#509,#510);
#410=AXIS2_PLACEMENT_3D('',#611,#511,#512);
#411=DIRECTION('axis',(0.,0.,1.));
#412=DIRECTION('refdir',(1.,0.,0.));
#413=DIRECTION('center_axis',(0.,0.,1.));
#414=DIRECTION('ref_axis',(1.,0.,0.));
#415=DIRECTION('center_axis',(0.,0.,-1.));
#416=DIRECTION('ref_axis',(1.,0.,0.));
#417=DIRECTION('',(0.,0.,-1.));
#418=DIRECTION('center_axis',(0.,0.,-1.));
#419=DIRECTION('ref_axis',(1.,0.,0.));
#420=DIRECTION('center_axis',(0.,-1.,0.));
#421=DIRECTION('ref_axis',(1.,0.,0.));
#422=DIRECTION('',(1.,0.,0.));
#423=DIRECTION('',(0.,0.,1.));
#424=DIRECTION('',(1.,0.,0.));
#425=DIRECTION('',(0.,0.,1.));
#426=DIRECTION('center_axis',(0.,0.,1.));
#427=DIRECTION('ref_axis',(-0.707106781186547,0.707106781186548,0.));
#428=DIRECTION('center_axis',(0.,0.,-1.));
#429=DIRECTION('ref_axis',(1.,0.,0.));
#430=DIRECTION('center_axis',(0.,0.,-1.));
#431=DIRECTION('ref_axis',(1.,0.,0.));
#432=DIRECTION('',(0.,0.,1.));
#433=DIRECTION('center_axis',(1.,0.,0.));
#434=DIRECTION('ref_axis',(0.,1.,0.));
#435=DIRECTION('',(0.,1.,0.));
#436=DIRECTION('',(0.,1.,0.));
#437=DIRECTION('',(0.,0.,1.));
#438=DIRECTION('center_axis',(0.,0.,1.));
#439=DIRECTION('ref_axis',(-0.707106781186548,-0.707106781186547,0.));
#440=DIRECTION('center_axis',(0.,0.,-1.));
#441=DIRECTION('ref_axis',(1.,0.,0.));
#442=DIRECTION('center_axis',(0.,0.,-1.));
#443=DIRECTION('ref_axis',(1.,0.,0.));
#444=DIRECTION('',(0.,0.,1.));
#445=DIRECTION('center_axis',(0.,1.,0.));
#446=DIRECTION('ref_axis',(-1.,0.,0.));
#447=DIRECTION('',(-1.,0.,0.));
#448=DIRECTION('',(-1.,0.,0.));
#449=DIRECTION('',(0.,0.,1.));
#450=DIRECTION('center_axis',(0.,0.,1.));
#451=DIRECTION('ref_axis',(1.,0.,0.));
#452=DIRECTION('center_axis',(0.,0.,-1.));
#453=DIRECTION('ref_axis',(1.,0.,0.));
#454=DIRECTION('center_axis',(0.,0.,-1.));
#455=DIRECTION('ref_axis',(1.,0.,0.));
#456=DIRECTION('',(0.,0.,1.));
#457=DIRECTION('center_axis',(-1.,0.,0.));
#458=DIRECTION('ref_axis',(0.,-1.,0.));
#459=DIRECTION('',(0.,-1.,0.));
#460=DIRECTION('',(0.,-1.,0.));
#461=DIRECTION('',(0.,0.,1.));
#462=DIRECTION('center_axis',(0.,0.,1.));
#463=DIRECTION('ref_axis',(1.,0.,0.));
#464=DIRECTION('center_axis',(0.,0.,-1.));
#465=DIRECTION('ref_axis',(1.,0.,0.));
#466=DIRECTION('center_axis',(0.,0.,-1.));
#467=DIRECTION('ref_axis',(1.,0.,0.));
#468=DIRECTION('center_axis',(0.,0.,1.));
#469=DIRECTION('ref_axis',(1.,0.,0.));
#470=DIRECTION('center_axis',(0.,0.,-1.));
#471=DIRECTION('ref_axis',(1.,0.,0.));
#472=DIRECTION('',(0.,0.,-1.));
#473=DIRECTION('center_axis',(0.,0.,-1.));
#474=DIRECTION('ref_axis',(1.,0.,0.));
#475=DIRECTION('center_axis',(0.,0.,1.));
#476=DIRECTION('ref_axis',(1.,0.,0.));
#477=DIRECTION('center_axis',(0.,0.,-1.));
#478=DIRECTION('ref_axis',(1.,0.,0.));
#479=DIRECTION('',(0.,0.,-1.));
#480=DIRECTION('center_axis',(0.,0.,-1.));
#481=DIRECTION('ref_axis',(1.,0.,0.));
#482=DIRECTION('center_axis',(0.,0.,1.));
#483=DIRECTION('ref_axis',(1.,0.,0.));
#484=DIRECTION('center_axis',(0.,0.,-1.));
#485=DIRECTION('ref_axis',(1.,0.,0.));
#486=DIRECTION('',(0.,0.,-1.));
#487=DIRECTION('center_axis',(0.,0.,-1.));
#488=DIRECTION('ref_axis',(1.,0.,0.));
#489=DIRECTION('center_axis',(1.,0.,0.));
#490=DIRECTION('ref_axis',(0.,1.,0.));
#491=DIRECTION('',(0.,-1.,0.));
#492=DIRECTION('',(0.,0.,1.));
#493=DIRECTION('',(0.,1.,0.));
#494=DIRECTION('',(0.,0.,1.));
#495=DIRECTION('center_axis',(0.,-1.,0.));
#496=DIRECTION('ref_axis',(1.,0.,0.));
#497=DIRECTION('',(-1.,0.,0.));
#498=DIRECTION('',(1.,0.,0.));
#499=DIRECTION('',(0.,0.,1.));
#500=DIRECTION('center_axis',(-1.,0.,0.));
#501=DIRECTION('ref_axis',(0.,-1.,0.));
#502=DIRECTION('',(0.,1.,0.));
#503=DIRECTION('',(0.,-1.,0.));
#504=DIRECTION('',(0.,0.,1.));
#505=DIRECTION('center_axis',(0.,1.,0.));
#506=DIRECTION('ref_axis',(-1.,0.,0.));
#507=DIRECTION('',(1.,0.,0.));
#508=DIRECTION('',(-1.,0.,0.));
#509=DIRECTION('center_axis',(0.,0.,1.));
#510=DIRECTION('ref_axis',(1.,0.,0.));
#511=DIRECTION('center_axis',(0.,0.,1.));
#512=DIRECTION('ref_axis',(1.,0.,0.));
#513=CARTESIAN_POINT('',(0.,0.,0.));
#514=CARTESIAN_POINT('Origin',(-790.,350.,0.));
#515=CARTESIAN_POINT('',(-791.95,350.,5.));
#516=CARTESIAN_POINT('Origin',(-790.,350.,5.));
#517=CARTESIAN_POINT('',(-791.95,350.,0.));
#518=CARTESIAN_POINT('',(-791.95,350.,0.));
#519=CARTESIAN_POINT('Origin',(-790.,350.,0.));
#520=CARTESIAN_POINT('Origin',(-782.5,345.,0.));
#521=CARTESIAN_POINT('',(-782.5,345.,0.));
#522=CARTESIAN_POINT('',(-17.5,345.,0.));
#523=CARTESIAN_POINT('',(-785.,345.,0.));
#524=CARTESIAN_POINT('',(-17.5,345.,5.));
#525=CARTESIAN_POINT('',(-17.5,345.,0.));
#526=CARTESIAN_POINT('',(-782.5,345.,5.));
#527=CARTESIAN_POINT('',(-785.,345.,5.));
#528=CARTESIAN_POINT('',(-782.5,345.,0.));
#529=CARTESIAN_POINT('Origin',(-785.,345.,0.));
#530=CARTESIAN_POINT('',(-785.,342.5,0.));
#531=CARTESIAN_POINT('Origin',(-785.,345.,0.));
#532=CARTESIAN_POINT('',(-785.,342.5,5.));
#533=CARTESIAN_POINT('Origin',(-785.,345.,5.));
#534=CARTESIAN_POINT('',(-785.,342.5,0.));
#535=CARTESIAN_POINT('Origin',(-785.,17.5,0.));
#536=CARTESIAN_POINT('',(-785.,17.5,0.));
#537=CARTESIAN_POINT('',(-785.,15.,0.));
#538=CARTESIAN_POINT('',(-785.,17.5,5.));
#539=CARTESIAN_POINT('',(-785.,15.,5.));
#540=CARTESIAN_POINT('',(-785.,17.5,0.));
#541=CARTESIAN_POINT('Origin',(-785.,15.,0.));
#542=CARTESIAN_POINT('',(-782.5,15.,0.));
#543=CARTESIAN_POINT('Origin',(-785.,15.,0.));
#544=CARTESIAN_POINT('',(-782.5,15.,5.));
#545=CARTESIAN_POINT('Origin',(-785.,15.,5.));
#546=CARTESIAN_POINT('',(-782.5,15.,0.));
#547=CARTESIAN_POINT('Origin',(-17.5,15.,0.));
#548=CARTESIAN_POINT('',(-17.5,15.,0.));
#549=CARTESIAN_POINT('',(-15.,15.,0.));
#550=CARTESIAN_POINT('',(-17.5,15.,5.));
#551=CARTESIAN_POINT('',(-15.,15.,5.));
#552=CARTESIAN_POINT('',(-17.5,15.,0.));
#553=CARTESIAN_POINT('Origin',(-15.,15.,0.));
#554=CARTESIAN_POINT('',(-15.,17.5,0.));
#555=CARTESIAN_POINT('Origin',(-15.,15.,0.));
#556=CARTESIAN_POINT('',(-15.,17.5,5.));
#557=CARTESIAN_POINT('Origin',(-15.,15.,5.));
#558=CARTESIAN_POINT('',(-15.,17.5,0.));
#559=CARTESIAN_POINT('Origin',(-15.,342.5,0.));
#560=CARTESIAN_POINT('',(-15.,342.5,0.));
#561=CARTESIAN_POINT('',(-15.,345.,0.));
#562=CARTESIAN_POINT('',(-15.,342.5,5.));
#563=CARTESIAN_POINT('',(-15.,345.,5.));
#564=CARTESIAN_POINT('',(-15.,342.5,0.));
#565=CARTESIAN_POINT('Origin',(-15.,345.,0.));
#566=CARTESIAN_POINT('Origin',(-15.,345.,0.));
#567=CARTESIAN_POINT('Origin',(-15.,345.,5.));
#568=CARTESIAN_POINT('Origin',(-10.,350.,0.));
#569=CARTESIAN_POINT('',(-11.9499999999999,350.,5.));
#570=CARTESIAN_POINT('Origin',(-10.,350.,5.));
#571=CARTESIAN_POINT('',(-11.95,350.,0.));
#572=CARTESIAN_POINT('',(-11.95,350.,0.));
#573=CARTESIAN_POINT('Origin',(-10.,350.,0.));
#574=CARTESIAN_POINT('Origin',(-10.,10.,0.));
#575=CARTESIAN_POINT('',(-11.9499999999999,10.,5.));
#576=CARTESIAN_POINT('Origin',(-10.,10.,5.));
#577=CARTESIAN_POINT('',(-11.95,10.,0.));
#578=CARTESIAN_POINT('',(-11.95,10.,0.));
#579=CARTESIAN_POINT('Origin',(-10.,10.,0.));
#580=CARTESIAN_POINT('Origin',(-790.,10.,0.));
#581=CARTESIAN_POINT('',(-791.95,10.,5.));
#582=CARTESIAN_POINT('Origin',(-790.,10.,5.));
#583=CARTESIAN_POINT('',(-791.95,10.,0.));
#584=CARTESIAN_POINT('',(-791.95,10.,0.));
#585=CARTESIAN_POINT('Origin',(-790.,10.,0.));
#586=CARTESIAN_POINT('Origin',(0.,0.,0.));
#587=CARTESIAN_POINT('',(0.,360.,0.));
#588=CARTESIAN_POINT('',(0.,0.,0.));
#589=CARTESIAN_POINT('',(0.,360.,0.));
#590=CARTESIAN_POINT('',(0.,360.,5.));
#591=CARTESIAN_POINT('',(0.,360.,0.));
#592=CARTESIAN_POINT('',(0.,0.,5.));
#593=CARTESIAN_POINT('',(0.,360.,5.));
#594=CARTESIAN_POINT('',(0.,0.,0.));
#595=CARTESIAN_POINT('Origin',(-800.,0.,0.));
#596=CARTESIAN_POINT('',(-800.,0.,0.));
#597=CARTESIAN_POINT('',(0.,0.,0.));
#598=CARTESIAN_POINT('',(-800.,0.,5.));
#599=CARTESIAN_POINT('',(0.,0.,5.));
#600=CARTESIAN_POINT('',(-800.,0.,0.));
#601=CARTESIAN_POINT('Origin',(-800.,360.,0.));
#602=CARTESIAN_POINT('',(-800.,360.,0.));
#603=CARTESIAN_POINT('',(-800.,0.,0.));
#604=CARTESIAN_POINT('',(-800.,360.,5.));
#605=CARTESIAN_POINT('',(-800.,0.,5.));
#606=CARTESIAN_POINT('',(-800.,360.,0.));
#607=CARTESIAN_POINT('Origin',(0.,360.,0.));
#608=CARTESIAN_POINT('',(-800.,360.,0.));
#609=CARTESIAN_POINT('',(-800.,360.,5.));
#610=CARTESIAN_POINT('Origin',(-400.,180.,5.));
#611=CARTESIAN_POINT('Origin',(-400.,180.,0.));
#612=UNCERTAINTY_MEASURE_WITH_UNIT(LENGTH_MEASURE(0.01),#616,
'DISTANCE_ACCURACY_VALUE',
'Maximum model space distance between geometric entities at asserted c
onnectivities');
#613=UNCERTAINTY_MEASURE_WITH_UNIT(LENGTH_MEASURE(0.01),#616,
'DISTANCE_ACCURACY_VALUE',
'Maximum model space distance between geometric entities at asserted c
onnectivities');
#614=(
GEOMETRIC_REPRESENTATION_CONTEXT(3)
GLOBAL_UNCERTAINTY_ASSIGNED_CONTEXT((#612))
GLOBAL_UNIT_ASSIGNED_CONTEXT((#616,#618,#619))
REPRESENTATION_CONTEXT('','3D')
);
#615=(
GEOMETRIC_REPRESENTATION_CONTEXT(3)
GLOBAL_UNCERTAINTY_ASSIGNED_CONTEXT((#613))
GLOBAL_UNIT_ASSIGNED_CONTEXT((#616,#618,#619))
REPRESENTATION_CONTEXT('','3D')
);
#616=(
LENGTH_UNIT()
NAMED_UNIT(*)
SI_UNIT(.MILLI.,.METRE.)
);
#617=(
LENGTH_UNIT()
NAMED_UNIT(*)
SI_UNIT($,.METRE.)
);
#618=(
NAMED_UNIT(*)
PLANE_ANGLE_UNIT()
SI_UNIT($,.RADIAN.)
);
#619=(
NAMED_UNIT(*)
SI_UNIT($,.STERADIAN.)
SOLID_ANGLE_UNIT()
);
#620=SHAPE_DEFINITION_REPRESENTATION(#621,#622);
#621=PRODUCT_DEFINITION_SHAPE('',$,#624);
#622=SHAPE_REPRESENTATION('',(#376),#614);
#623=PRODUCT_DEFINITION_CONTEXT('part definition',#628,'design');
#624=PRODUCT_DEFINITION('LEF2-300 Basic Jig','LEF2-300 Basic Jig v2',#625,
#623);
#625=PRODUCT_DEFINITION_FORMATION('',$,#630);
#626=PRODUCT_RELATED_PRODUCT_CATEGORY('LEF2-300 Basic Jig v2',
'LEF2-300 Basic Jig v2',(#630));
#627=APPLICATION_PROTOCOL_DEFINITION('international standard',
'automotive_design',2009,#628);
#628=APPLICATION_CONTEXT(
'Core Data for Automotive Mechanical Design Process');
#629=PRODUCT_CONTEXT('part definition',#628,'mechanical');
#630=PRODUCT('LEF2-300 Basic Jig','LEF2-300 Basic Jig v2',$,(#629));
#631=PRESENTATION_STYLE_ASSIGNMENT((#632));
#632=SURFACE_STYLE_USAGE(.BOTH.,#633);
#633=SURFACE_SIDE_STYLE('',(#634));
#634=SURFACE_STYLE_FILL_AREA(#635);
#635=FILL_AREA_STYLE('Steel - Satin',(#636));
#636=FILL_AREA_STYLE_COLOUR('Steel - Satin',#637);
#637=COLOUR_RGB('Steel - Satin',0.627450980392157,0.627450980392157,0.627450980392157);
ENDSEC;
END-ISO-10303-21;
